супер песни

здесь вы можете послушать и без проблем скачать песню песня классная и музыка супер ... от Песни под гитару и также посмотреть клип Поет супер! Классная песня!

Понравилось: 0

Певец: Песни под гитару

Композиция: песня классная и музыка супер ...

Длина: 02:50

Просмотрели: 233

Дата: 2014-10-19

Скачать

Другие песни этого исполнителя Песни под гитару
Весь текст:

Мне хочется плакать, мне хочется выть
Я начал понимать, что не могу тебя забыть...
Ты ушла от меня, захлопнув дверь за собой,
Мне страшно одному и я хочу быть с тобой...

Мне страшно одному, мне страшно без тебя,
Мне нет пути назад, прости же меня...
Мне страшно одному, мне страшно без тебя,
Мне нет пути назад, прости же меня...

Ты мне снишься по ночам, я не могу закрыть глаза,
Но когда тебя я вспомню, по щеке течёт слеза,
Твоё лицо я снова вижу, снова слышу голос твой,
Проснувшись понимаю, что хочу быть с тобой...

Я хочу быть с тобой, я хочу обнять тебя,
Но это всё лишь мечты, прости же меня...
Я хочу быть с тобой, но забываю тебя,
Но это всё лишь мечты, прости же меня...
Я хочу быть с тобой, но теряю тебя,
Но это всё лишь мечты, прости же меня...

Начало можно сыграть примерно вот так вот:

флажолеты (2 раза):
1----12-----12------
2--------------12---
3-----------------12
4-------------------
5-12-----12---------
4 раза:
1------0--------
2-0-------0---0-
3----5------5---

Вступает вторая гитара:

Asus2 Fmaj7 C G6
(...............)

Asus2 Fmaj7 C G6
1---------0----------0----------0-----------
2-----0h1--------0h1--------0h1----3-1-3--0-
3---2----------2----------0-----------------
4------------3------------------------------
5-0---------------------3-------------------
6-------------------------------------------

0h1 - восходящее легато, дергаешь открытую струну и резко прижимаешь струну на первом ладу

Видео
Поет супер! Классная песня!
Комментарии (0)
Добавьте ваш коментарий



Безопасность: